Презентация "Табулатура"

Подписи к слайдам:
Табулатура Табулатура — форма музыкальной записи, оперирующая рабочими элементами музыкального инструмента (струнами, ладами).

1)-------------------------------

2)-------------------------------

3)-------------------------------

4)-------------------------------

5)-------------------------------

6)-------------------------------

В гитарной табулатуре мелодия показана на нескольких горизонтальных линиях, соответствующих струнам гитары

Ноты - обозначены цифрами ладов и расположены последовательно

1)-5-0-5-0------------

2)-----------------------

3)-----------------------

4)-----------------------

5)-----------------------

6)-----------------------

Пример 1

1)----------------

2)----------------

3)----------------

4)----------------

5)---------0-1-2

6)0-1-2---------

Пример 2

Цифра 0 соответствует не зажатой струне, символ «x» обозначает приглушенную

(не звучащую) струну

1)--------------

2)--------------

3)--------------

4)--------------

5)------0-1-х-

6)0-1-х-------

Пример 1

1)-1-3-------------------------

2)------3-5--------------------

3)-----------6b----------------

4)------------------------------

5)------------------------------

6)------------------------------

Часто табулатуры также содержат различные указатели, необходимые для правильной игры.

В этой табулатуре показано, что пятую ноту нужно взять с приёмом «бенд»

Пример табулатур

Современная табулатура

Табулатуры для виуэлы из книги Мигеля де Фуэнльяна «Orphenica Lyra» (1554 г.)

Домашнее задание
  • Попробуйте разобрать табулатуру песни «Елочка» на предыдущем слайде!
  • отправляйте выполненное домашнее задание Vk: https://vk.com/devilsimphony Viber WhatsApp Почта: pawellopatin@yandex.ru

8-913-405-25-85